ISO-10303-21;
HEADER;
FILE_DESCRIPTION (( 'STEP AP214' ),
    '1' );
FILE_NAME ('1147118.stp',
    '2019-02-11T14:05:44',
    ( '' ),
    ( '' ),
    'SwSTEP 2.0',
    'SolidWorks 2018',
    '' );
FILE_SCHEMA (( 'AUTOMOTIVE_DESIGN' ));
ENDSEC;

DATA;
#1 = LINE ( 'NONE', #246, #384 ) ;
#2 = ADVANCED_FACE ( 'NONE', ( #209 ), #49, .F. ) ;
#3 = ORIENTED_EDGE ( 'NONE', *, *, #335, .T. ) ;
#4 = COLOUR_RGB ( '',0.7529411764705882248, 0.7529411764705882248, 0.7529411764705882248 ) ;
#5 = ADVANCED_FACE ( 'NONE', ( #104 ), #317, .F. ) ;
#6 = EDGE_CURVE ( 'NONE', #348, #390, #271, .T. ) ;
#7 = ORIENTED_EDGE ( 'NONE', *, *, #81, .T. ) ;
#8 = ADVANCED_FACE ( 'NONE', ( #238 ), #46, .F. ) ;
#9 = DIRECTION ( 'NONE',  ( -0.3011313679370973273, 0.9535826651341416937, 0.0000000000000000000 ) ) ;
#10 = VERTEX_POINT ( 'NONE', #14 ) ;
#11 = CARTESIAN_POINT ( 'NONE',  ( 17.50000000000000000, 10.00000000000000000, -8.500000000000000000 ) ) ;
#12 = LINE ( 'NONE', #231, #296 ) ;
#13 = DIRECTION ( 'NONE',  ( -1.000000000000000000, 0.0000000000000000000, 0.0000000000000000000 ) ) ;
#14 = CARTESIAN_POINT ( 'NONE',  ( -14.50244132795607754, 0.9465974753822919974, 8.500000000000000000 ) ) ;
#15 = PRESENTATION_LAYER_ASSIGNMENT (  '', '', ( #80 ) ) ;
#16 = DIRECTION ( 'NONE',  ( 0.0000000000000000000, 0.0000000000000000000, -1.000000000000000000 ) ) ;
#17 = DIRECTION ( 'NONE',  ( -0.0000000000000000000, -0.0000000000000000000, -1.000000000000000000 ) ) ;
#18 = CIRCLE ( 'NONE', #308, 5.500000000000000000 ) ;
#19 = ORIENTED_EDGE ( 'NONE', *, *, #367, .F. ) ;
#20 = CARTESIAN_POINT ( 'NONE',  ( -17.50000000000000000, 2.168404344971008868E-16, 8.500000000000000000 ) ) ;
#21 = AXIS2_PLACEMENT_3D ( 'NONE', #219, #213, #211 ) ;
#22 = DIRECTION ( 'NONE',  ( 0.9848077530122079093, 9.762109305567119065E-17, -0.1736481776669314692 ) ) ;
#23 = FACE_OUTER_BOUND ( 'NONE', #58, .T. ) ;
#24 = PLANE ( 'NONE',  #146 ) ;
#25 = ORIENTED_EDGE ( 'NONE', *, *, #335, .F. ) ;
#26 = EDGE_CURVE ( 'NONE', #145, #337, #293, .T. ) ;
#27 = ADVANCED_FACE ( 'NONE', ( #343 ), #385, .F. ) ;
#28 = EDGE_LOOP ( 'NONE', ( #216, #373, #171, #261 ) ) ;
#29 = ADVANCED_FACE ( 'NONE', ( #282 ), #357, .T. ) ;
#30 = ADVANCED_FACE ( 'NONE', ( #313 ), #365, .F. ) ;
#31 = LINE ( 'NONE', #253, #228 ) ;
#32 = ADVANCED_FACE ( 'NONE', ( #182, #371 ), #24, .F. ) ;
#33 = ADVANCED_FACE ( 'NONE', ( #95 ), #207, .F. ) ;
#34 = LINE ( 'NONE', #349, #393 ) ;
#35 = ORIENTED_EDGE ( 'NONE', *, *, #336, .F. ) ;
#36 = ADVANCED_FACE ( 'NONE', ( #53 ), #383, .F. ) ;
#37 = DIRECTION ( 'NONE',  ( -0.0000000000000000000, 0.0000000000000000000, -1.000000000000000000 ) ) ;
#38 = EDGE_CURVE ( 'NONE', #105, #348, #77, .T. ) ;
#39 = DIRECTION ( 'NONE',  ( -1.000000000000000000, 0.0000000000000000000, 0.0000000000000000000 ) ) ;
#40 = AXIS2_PLACEMENT_3D ( 'NONE', #130, #129, #125 ) ;
#41 = ADVANCED_FACE ( 'NONE', ( #23 ), #170, .F. ) ;
#42 = ADVANCED_FACE ( 'NONE', ( #325, #136 ), #326, .F. ) ;
#43 = FACE_OUTER_BOUND ( 'NONE', #178, .T. ) ;
#44 = FILL_AREA_STYLE ('',( #322 ) ) ;
#45 = ORIENTED_EDGE ( 'NONE', *, *, #239, .F. ) ;
#46 = PLANE ( 'NONE',  #285 ) ;
#47 = VECTOR ( 'NONE', #17, 1000.000000000000000 ) ;
#48 =( NAMED_UNIT ( * ) SI_UNIT ( $, .STERADIAN. ) SOLID_ANGLE_UNIT ( ) );
#49 = PLANE ( 'NONE',  #324 ) ;
#50 = EDGE_CURVE ( 'NONE', #390, #108, #155, .T. ) ;
#51 = EDGE_CURVE ( 'NONE', #283, #218, #102, .T. ) ;
#52 = VECTOR ( 'NONE', #142, 1000.000000000000000 ) ;
#53 = FACE_OUTER_BOUND ( 'NONE', #376, .T. ) ;
#54 = APPLICATION_PROTOCOL_DEFINITION ( 'draft international standard', 'automotive_design', 1998, #291 ) ;
#55 = VERTEX_POINT ( 'NONE', #295 ) ;
#56 = VECTOR ( 'NONE', #294, 1000.000000000000227 ) ;
#57 = ADVANCED_FACE ( 'NONE', ( #43 ), #287, .F. ) ;
#58 = EDGE_LOOP ( 'NONE', ( #386, #115, #7, #327 ) ) ;
#59 = AXIS2_PLACEMENT_3D ( 'NONE', #340, #381, #312 ) ;
#60 = DIRECTION ( 'NONE',  ( 0.0000000000000000000, 1.000000000000000000, 0.0000000000000000000 ) ) ;
#61 = ORIENTED_EDGE ( 'NONE', *, *, #299, .F. ) ;
#62 = DIRECTION ( 'NONE',  ( 0.9535826651341416937, -0.3011313679370973273, 0.0000000000000000000 ) ) ;
#63 = LINE ( 'NONE', #121, #289 ) ;
#64 = VECTOR ( 'NONE', #301, 1000.000000000000000 ) ;
#65 = EDGE_CURVE ( 'NONE', #108, #10, #302, .T. ) ;
#66 = DIRECTION ( 'NONE',  ( 0.0000000000000000000, -0.0000000000000000000, 1.000000000000000000 ) ) ;
#67 = UNCERTAINTY_MEASURE_WITH_UNIT (LENGTH_MEASURE( 1.000000000000000082E-05 ), #303, 'distance_accuracy_value', 'NONE');
#68 = DIRECTION ( 'NONE',  ( -0.1736481776669314692, 0.0000000000000000000, -0.9848077530122079093 ) ) ;
#69 = EDGE_CURVE ( 'NONE', #108, #218, #31, .T. ) ;
#70 = LINE ( 'NONE', #205, #47 ) ;
#71 = PRODUCT_DEFINITION ( 'UNKNOWN', '', #193, #160 ) ;
#72 = ORIENTED_EDGE ( 'NONE', *, *, #110, .T. ) ;
#73 = DIRECTION ( 'NONE',  ( 1.000000000000000000, 0.0000000000000000000, -0.0000000000000000000 ) ) ;
#74 = VERTEX_POINT ( 'NONE', #229 ) ;
#75 = CARTESIAN_POINT ( 'NONE',  ( -8.000000000000000000, 2.168404344971008868E-16, 8.500000000000000000 ) ) ;
#76 = AXIS2_PLACEMENT_3D ( 'NONE', #332, #277, #269 ) ;
#77 = LINE ( 'NONE', #354, #333 ) ;
#78 = DIRECTION ( 'NONE',  ( 0.0000000000000000000, 0.0000000000000000000, 1.000000000000000000 ) ) ;
#79 = APPLICATION_CONTEXT ( 'automotive_design' ) ;
#80 = STYLED_ITEM ( 'NONE', ( #184 ), #274 ) ;
#81 = EDGE_CURVE ( 'NONE', #398, #74, #107, .T. ) ;
#82 = ORIENTED_EDGE ( 'NONE', *, *, #280, .F. ) ;
#83 = DIRECTION ( 'NONE',  ( -0.0000000000000000000, -0.0000000000000000000, -1.000000000000000000 ) ) ;
#84 = EDGE_LOOP ( 'NONE', ( #276, #272, #25, #331, #87, #351, #97, #212 ) ) ;
#85 = PRODUCT_RELATED_PRODUCT_CATEGORY ( 'part', '', ( #152 ) ) ;
#86 = EDGE_CURVE ( 'NONE', #92, #74, #12, .T. ) ;
#87 = ORIENTED_EDGE ( 'NONE', *, *, #132, .F. ) ;
#88 = DIRECTION ( 'NONE',  ( 0.0000000000000000000, -1.000000000000000000, 0.0000000000000000000 ) ) ;
#89 = LINE ( 'NONE', #154, #397 ) ;
#90 = CARTESIAN_POINT ( 'NONE',  ( 8.000000000000000000, 3.000000000000000000, -8.500000000000000000 ) ) ;
#91 =( NAMED_UNIT ( * ) SI_UNIT ( $, .STERADIAN. ) SOLID_ANGLE_UNIT ( ) );
#92 = VERTEX_POINT ( 'NONE', #201 ) ;
#93 = EDGE_CURVE ( 'NONE', #227, #390, #1, .T. ) ;
#94 = CARTESIAN_POINT ( 'NONE',  ( 17.50000000000000000, 10.00000000000000000, 8.500000000000000000 ) ) ;
#95 = FACE_OUTER_BOUND ( 'NONE', #297, .T. ) ;
#96 = SHAPE_DEFINITION_REPRESENTATION ( #368, #274 ) ;
#97 = ORIENTED_EDGE ( 'NONE', *, *, #69, .F. ) ;
#98 = EDGE_CURVE ( 'NONE', #337, #321, #70, .T. ) ;
#99 = DIRECTION ( 'NONE',  ( 0.9535826651341416937, -0.3011313679370973273, 0.0000000000000000000 ) ) ;
#100 = VECTOR ( 'NONE', #164, 1000.000000000000000 ) ;
#101 = DIRECTION ( 'NONE',  ( -1.000000000000000000, 0.0000000000000000000, 0.0000000000000000000 ) ) ;
#102 = LINE ( 'NONE', #309, #64 ) ;
#103 = VERTEX_POINT ( 'NONE', #203 ) ;
#104 = FACE_OUTER_BOUND ( 'NONE', #341, .T. ) ;
#105 = VERTEX_POINT ( 'NONE', #200 ) ;
#106 = VERTEX_POINT ( 'NONE', #194 ) ;
#107 = CIRCLE ( 'NONE', #21, 5.500000000000000000 ) ;
#108 = VERTEX_POINT ( 'NONE', #202 ) ;
#109 = VECTOR ( 'NONE', #176, 999.9999999999998863 ) ;
#110 = EDGE_CURVE ( 'NONE', #10, #283, #244, .T. ) ;
#111 = EDGE_LOOP ( 'NONE', ( #404, #82, #306, #204 ) ) ;
#112 = CARTESIAN_POINT ( 'NONE',  ( -8.000000000000000000, 3.000000000000000000, 8.500000000000000000 ) ) ;
#113 = FILL_AREA_STYLE_COLOUR ( '', #4 ) ;
#114 = CARTESIAN_POINT ( 'NONE',  ( 0.0000000000000000000, 0.0000000000000000000, 5.944591164848680122E-16 ) ) ;
#115 = ORIENTED_EDGE ( 'NONE', *, *, #367, .T. ) ;
#116 = CARTESIAN_POINT ( 'NONE',  ( 17.50000000000000000, 10.00000000000000178, 8.500000000000000000 ) ) ;
#117 = PRESENTATION_STYLE_ASSIGNMENT (( #284 ) ) ;
#118 = ORIENTED_EDGE ( 'NONE', *, *, #38, .T. ) ;
#119 = DIRECTION ( 'NONE',  ( 0.0000000000000000000, -1.000000000000000000, 0.0000000000000000000 ) ) ;
#120 = DIRECTION ( 'NONE',  ( 0.1736481776669312749, -0.0000000000000000000, 0.9848077530122079093 ) ) ;
#121 = CARTESIAN_POINT ( 'NONE',  ( 17.50000000000000000, 2.168404344971008868E-16, 8.500000000000000000 ) ) ;
#122 = DIRECTION ( 'NONE',  ( -0.1736481776669314692, -0.0000000000000000000, -0.9848077530122079093 ) ) ;
#123 = DIRECTION ( 'NONE',  ( 0.0000000000000000000, -1.000000000000000000, 0.0000000000000000000 ) ) ;
#124 = CARTESIAN_POINT ( 'NONE',  ( -8.000000000000000000, 3.000000000000000000, 8.500000000000000000 ) ) ;
#125 = DIRECTION ( 'NONE',  ( 0.0000000000000000000, 0.0000000000000000000, -1.000000000000000000 ) ) ;
#126 = ORIENTED_EDGE ( 'NONE', *, *, #396, .T. ) ;
#127 = FILL_AREA_STYLE ('',( #113 ) ) ;
#128 = CARTESIAN_POINT ( 'NONE',  ( 8.000000000000000000, 3.000000000000000000, 8.500000000000000000 ) ) ;
#129 = DIRECTION ( 'NONE',  ( 0.0000000000000000000, -1.000000000000000000, 0.0000000000000000000 ) ) ;
#130 = CARTESIAN_POINT ( 'NONE',  ( 0.0000000000000000000, 10.00000000000000000, 5.944591164848680122E-16 ) ) ;
#131 = CARTESIAN_POINT ( 'NONE',  ( 14.50244132795608110, 10.00000000000000178, -8.500000000000000000 ) ) ;
#132 = EDGE_CURVE ( 'NONE', #103, #364, #174, .T. ) ;
#133 = DIRECTION ( 'NONE',  ( 1.000000000000000000, 0.0000000000000000000, 0.0000000000000000000 ) ) ;
#134 = VECTOR ( 'NONE', #188, 1000.000000000000000 ) ;
#135 = CARTESIAN_POINT ( 'NONE',  ( 8.000000000000000000, 3.000000000000000000, 8.500000000000000000 ) ) ;
#136 = FACE_OUTER_BOUND ( 'NONE', #111, .T. ) ;
#137 = CARTESIAN_POINT ( 'NONE',  ( -8.000000000000000000, 2.168404344971008868E-16, 8.500000000000000000 ) ) ;
#138 = DIRECTION ( 'NONE',  ( -0.0000000000000000000, -1.000000000000000000, -0.0000000000000000000 ) ) ;
#139 = AXIS2_PLACEMENT_3D ( 'NONE', #281, #73, #37 ) ;
#140 = EDGE_LOOP ( 'NONE', ( #300, #72, #198, #240, #402, #190, #226, #378 ) ) ;
#141 = CARTESIAN_POINT ( 'NONE',  ( -14.50244132795607754, 9.999999999999998224, 8.500000000000000000 ) ) ;
#142 = DIRECTION ( 'NONE',  ( -9.912705577010325549E-17, 1.000000000000000000, -0.0000000000000000000 ) ) ;
#143 = VECTOR ( 'NONE', #196, 1000.000000000000114 ) ;
#144 = CARTESIAN_POINT ( 'NONE',  ( -8.000000000000000000, 3.000000000000000000, -8.500000000000000000 ) ) ;
#145 = VERTEX_POINT ( 'NONE', #156 ) ;
#146 = AXIS2_PLACEMENT_3D ( 'NONE', #375, #172, #66 ) ;
#147 = LINE ( 'NONE', #75, #407 ) ;
#148 = EDGE_CURVE ( 'NONE', #10, #227, #260, .T. ) ;
#149 = VECTOR ( 'NONE', #320, 1000.000000000000000 ) ;
#150 = EDGE_LOOP ( 'NONE', ( #19, #165, #210, #225 ) ) ;
#151 = ORIENTED_EDGE ( 'NONE', *, *, #256, .F. ) ;
#152 = PRODUCT ( '1147118', '1147118', '', ( #237 ) ) ;
#153 = ORIENTED_EDGE ( 'NONE', *, *, #98, .T. ) ;
#154 = CARTESIAN_POINT ( 'NONE',  ( -8.000000000000000000, 2.168404344971008868E-16, 8.500000000000000000 ) ) ;
#155 = LINE ( 'NONE', #310, #149 ) ;
#156 = CARTESIAN_POINT ( 'NONE',  ( 8.000000000000000000, 2.168404344971008868E-16, 8.500000000000000000 ) ) ;
#157 = SURFACE_SIDE_STYLE ('',( #311 ) ) ;
#158 = EDGE_CURVE ( 'NONE', #92, #55, #168, .T. ) ;
#159 = DIRECTION ( 'NONE',  ( -0.0000000000000000000, 0.0000000000000000000, 1.000000000000000000 ) ) ;
#160 = PRODUCT_DEFINITION_CONTEXT ( 'detailed design', #291, 'design' ) ;
#161 = CARTESIAN_POINT ( 'NONE',  ( -14.50244132795607577, -0.001000000000002734812, 8.500000000000000000 ) ) ;
#162 = LINE ( 'NONE', #208, #100 ) ;
#163 = DIRECTION ( 'NONE',  ( -0.0000000000000000000, -0.0000000000000000000, -1.000000000000000000 ) ) ;
#164 = DIRECTION ( 'NONE',  ( 0.0000000000000000000, 1.000000000000000000, 0.0000000000000000000 ) ) ;
#165 = ORIENTED_EDGE ( 'NONE', *, *, #158, .F. ) ;
#166 = CARTESIAN_POINT ( 'NONE',  ( 17.50000000000000000, 10.00000000000000178, 8.500000000000000000 ) ) ;
#167 =( LENGTH_UNIT ( ) NAMED_UNIT ( * ) SI_UNIT ( .MILLI., .METRE. ) );
#168 = CIRCLE ( 'NONE', #40, 5.500000000000000000 ) ;
#169 = CARTESIAN_POINT ( 'NONE',  ( 6.735557395310442023E-16, 17.00000000000000000, 5.500000000000000888 ) ) ;
#170 = CYLINDRICAL_SURFACE ( 'NONE', #408, 5.500000000000000000 ) ;
#171 = ORIENTED_EDGE ( 'NONE', *, *, #93, .T. ) ;
#172 = DIRECTION ( 'NONE',  ( 0.0000000000000000000, 1.000000000000000000, 0.0000000000000000000 ) ) ;
#173 = CARTESIAN_POINT ( 'NONE',  ( -17.50000000000000000, 2.168404344971008868E-16, 8.500000000000000000 ) ) ;
#174 = LINE ( 'NONE', #180, #134 ) ;
#175 = CARTESIAN_POINT ( 'NONE',  ( 8.000000000000000000, 2.168404344971008868E-16, -8.500000000000000000 ) ) ;
#176 = DIRECTION ( 'NONE',  ( 0.9535826651341416937, 0.3011313679370973273, 0.0000000000000000000 ) ) ;
#177 = VERTEX_POINT ( 'NONE', #137 ) ;
#178 = EDGE_LOOP ( 'NONE', ( #3, #243, #45, #153 ) ) ;
#179 = CARTESIAN_POINT ( 'NONE',  ( -17.50000000000000000, 10.00000000000000000, -8.500000000000000000 ) ) ;
#180 = CARTESIAN_POINT ( 'NONE',  ( -8.000000000000000000, 2.168404344971008868E-16, -8.500000000000000000 ) ) ;
#181 = DIRECTION ( 'NONE',  ( 1.000000000000000000, 0.0000000000000000000, 0.0000000000000000000 ) ) ;
#182 = FACE_BOUND ( 'NONE', #399, .T. ) ;
#183 = ORIENTED_EDGE ( 'NONE', *, *, #345, .T. ) ;
#184 = PRESENTATION_STYLE_ASSIGNMENT (( #189 ) ) ;
#185 =( LENGTH_UNIT ( ) NAMED_UNIT ( * ) SI_UNIT ( .MILLI., .METRE. ) );
#186 = ORIENTED_EDGE ( 'NONE', *, *, #26, .F. ) ;
#187 = VECTOR ( 'NONE', #120, 1000.000000000000114 ) ;
#188 = DIRECTION ( 'NONE',  ( 1.000000000000000000, 0.0000000000000000000, 0.0000000000000000000 ) ) ;
#189 = SURFACE_STYLE_USAGE ( .BOTH. , #286 ) ;
#190 = ORIENTED_EDGE ( 'NONE', *, *, #239, .T. ) ;
#191 = STYLED_ITEM ( 'NONE', ( #117 ), #318 ) ;
#192 = ORIENTED_EDGE ( 'NONE', *, *, #51, .F. ) ;
#193 = PRODUCT_DEFINITION_FORMATION_WITH_SPECIFIED_SOURCE ( 'ANY', '', #152, .NOT_KNOWN. ) ;
#194 = CARTESIAN_POINT ( 'NONE',  ( 17.50000000000000000, 2.168404344971008868E-16, 8.500000000000000000 ) ) ;
#195 = CARTESIAN_POINT ( 'NONE',  ( 6.735557395310442023E-16, 0.0000000000000000000, 5.500000000000000888 ) ) ;
#196 = DIRECTION ( 'NONE',  ( -0.1733876835661139204, 0.05475400533666755637, -0.9833304175541246472 ) ) ;
#197 =( NAMED_UNIT ( * ) PLANE_ANGLE_UNIT ( ) SI_UNIT ( $, .RADIAN. ) );
#198 = ORIENTED_EDGE ( 'NONE', *, *, #256, .T. ) ;
#199 = CARTESIAN_POINT ( 'NONE',  ( 17.50000949367015224, -2.998001100545419866E-06, 8.500053841278930378 ) ) ;
#200 = CARTESIAN_POINT ( 'NONE',  ( 14.50244132795608465, 0.9465974753822894439, -8.500000000000000000 ) ) ;
#201 = CARTESIAN_POINT ( 'NONE',  ( 0.0000000000000000000, 10.00000000000000000, -5.499999999999999112 ) ) ;
#202 = CARTESIAN_POINT ( 'NONE',  ( -17.50000000000000000, 2.168404344971008868E-16, -8.500000000000000000 ) ) ;
#203 = CARTESIAN_POINT ( 'NONE',  ( -8.000000000000000000, 2.168404344971008868E-16, -8.500000000000000000 ) ) ;
#204 = ORIENTED_EDGE ( 'NONE', *, *, #93, .F. ) ;
#205 = CARTESIAN_POINT ( 'NONE',  ( 8.000000000000000000, 3.000000000000000000, 8.500000000000000000 ) ) ;
#206 = DIRECTION ( 'NONE',  ( 0.0000000000000000000, 0.0000000000000000000, -1.000000000000000000 ) ) ;
#207 = PLANE ( 'NONE',  #314 ) ;
#208 = CARTESIAN_POINT ( 'NONE',  ( 8.000000000000000000, 2.168404344971008868E-16, -8.500000000000000000 ) ) ;
#209 = FACE_OUTER_BOUND ( 'NONE', #28, .T. ) ;
#210 = ORIENTED_EDGE ( 'NONE', *, *, #86, .T. ) ;
#211 = DIRECTION ( 'NONE',  ( 0.0000000000000000000, 0.0000000000000000000, -1.000000000000000000 ) ) ;
#212 = ORIENTED_EDGE ( 'NONE', *, *, #50, .F. ) ;
#213 = DIRECTION ( 'NONE',  ( 0.0000000000000000000, -1.000000000000000000, 0.0000000000000000000 ) ) ;
#214 = COLOUR_RGB ( '',0.7529411764705882248, 0.7529411764705882248, 0.7529411764705882248 ) ;
#215 = VECTOR ( 'NONE', #123, 1000.000000000000000 ) ;
#216 = ORIENTED_EDGE ( 'NONE', *, *, #65, .T. ) ;
#217 = CARTESIAN_POINT ( 'NONE',  ( 0.0000000000000000000, 17.00000000000000000, 5.944591164848680122E-16 ) ) ;
#218 = VERTEX_POINT ( 'NONE', #144 ) ;
#219 = CARTESIAN_POINT ( 'NONE',  ( 0.0000000000000000000, 0.0000000000000000000, 5.944591164848680122E-16 ) ) ;
#220 = EDGE_LOOP ( 'NONE', ( #316, #362, #266, #192 ) ) ;
#221 = DIRECTION ( 'NONE',  ( -0.0000000000000000000, -1.000000000000000000, -0.0000000000000000000 ) ) ;
#222 = VECTOR ( 'NONE', #138, 1000.000000000000000 ) ;
#223 = ORIENTED_EDGE ( 'NONE', *, *, #323, .F. ) ;
#224 = AXIS2_PLACEMENT_3D ( 'NONE', #249, #78, #267 ) ;
#225 = ORIENTED_EDGE ( 'NONE', *, *, #336, .T. ) ;
#226 = ORIENTED_EDGE ( 'NONE', *, *, #315, .T. ) ;
#227 = VERTEX_POINT ( 'NONE', #141 ) ;
#228 = VECTOR ( 'NONE', #245, 999.9999999999998863 ) ;
#229 = CARTESIAN_POINT ( 'NONE',  ( 0.0000000000000000000, 0.0000000000000000000, -5.499999999999999112 ) ) ;
#230 = ORIENTED_EDGE ( 'NONE', *, *, #292, .T. ) ;
#231 = CARTESIAN_POINT ( 'NONE',  ( 0.0000000000000000000, 17.00000000000000000, -5.499999999999999112 ) ) ;
#232 =( GEOMETRIC_REPRESENTATION_CONTEXT ( 3 ) GLOBAL_UNCERTAINTY_ASSIGNED_CONTEXT ( ( #250 ) ) GLOBAL_UNIT_ASSIGNED_CONTEXT ( ( #167, #268, #91 ) ) REPRESENTATION_CONTEXT ( 'NONE', 'WORKASPACE' ) );
#233 = CARTESIAN_POINT ( 'NONE',  ( 8.000000000000000000, 2.168404344971008868E-16, 8.500000000000000000 ) ) ;
#234 = LINE ( 'NONE', #169, #222 ) ;
#235 = ORIENTED_EDGE ( 'NONE', *, *, #98, .F. ) ;
#236 = AXIS2_PLACEMENT_3D ( 'NONE', #350, #159, #133 ) ;
#237 = PRODUCT_CONTEXT ( 'NONE', #79, 'mechanical' ) ;
#238 = FACE_OUTER_BOUND ( 'NONE', #220, .T. ) ;
#239 = EDGE_CURVE ( 'NONE', #337, #106, #248, .T. ) ;
#240 = ORIENTED_EDGE ( 'NONE', *, *, #299, .T. ) ;
#241 = DIRECTION ( 'NONE',  ( 0.0000000000000000000, 1.000000000000000000, 0.0000000000000000000 ) ) ;
#242 = LINE ( 'NONE', #94, #363 ) ;
#243 = ORIENTED_EDGE ( 'NONE', *, *, #360, .F. ) ;
#244 = LINE ( 'NONE', #173, #109 ) ;
#245 = DIRECTION ( 'NONE',  ( 0.9535826651341416937, 0.3011313679370973273, 0.0000000000000000000 ) ) ;
#246 = CARTESIAN_POINT ( 'NONE',  ( -17.50000000000000000, 9.999999999999998224, -8.500000000000000000 ) ) ;
#247 = EDGE_LOOP ( 'NONE', ( #258, #223, #61, #230 ) ) ;
#248 = LINE ( 'NONE', #135, #370 ) ;
#249 = CARTESIAN_POINT ( 'NONE',  ( 0.0000000000000000000, 0.0000000000000000000, 0.0000000000000000000 ) ) ;
#250 = UNCERTAINTY_MEASURE_WITH_UNIT (LENGTH_MEASURE( 1.000000000000000082E-05 ), #167, 'distance_accuracy_value', 'NONE');
#251 = ORIENTED_EDGE ( 'NONE', *, *, #315, .F. ) ;
#252 = AXIS2_PLACEMENT_3D ( 'NONE', #114, #119, #206 ) ;
#253 = CARTESIAN_POINT ( 'NONE',  ( -17.50000000000000000, 2.168404344971008868E-16, -8.500000000000000000 ) ) ;
#254 = VECTOR ( 'NONE', #13, 1000.000000000000000 ) ;
#255 =( NAMED_UNIT ( * ) SI_UNIT ( $, .STERADIAN. ) SOLID_ANGLE_UNIT ( ) );
#256 = EDGE_CURVE ( 'NONE', #283, #177, #305, .T. ) ;
#257 = CARTESIAN_POINT ( 'NONE',  ( 0.0000000000000000000, 0.0000000000000000000, 8.500000000000000000 ) ) ;
#258 = ORIENTED_EDGE ( 'NONE', *, *, #132, .T. ) ;
#259 = DIRECTION ( 'NONE',  ( 0.0000000000000000000, 0.0000000000000000000, 1.000000000000000000 ) ) ;
#260 = LINE ( 'NONE', #161, #52 ) ;
#261 = ORIENTED_EDGE ( 'NONE', *, *, #50, .T. ) ;
#262 =( GEOMETRIC_REPRESENTATION_CONTEXT ( 3 ) GLOBAL_UNCERTAINTY_ASSIGNED_CONTEXT ( ( #400 ) ) GLOBAL_UNIT_ASSIGNED_CONTEXT ( ( #185, #197, #48 ) ) REPRESENTATION_CONTEXT ( 'NONE', 'WORKASPACE' ) );
#263 = EDGE_LOOP ( 'NONE', ( #366, #183 ) ) ;
#264 = VECTOR ( 'NONE', #241, 1000.000000000000000 ) ;
#265 = CARTESIAN_POINT ( 'NONE',  ( -17.50000949367015224, -2.998001100200042181E-06, -8.500053841278930378 ) ) ;
#266 = ORIENTED_EDGE ( 'NONE', *, *, #69, .T. ) ;
#267 = DIRECTION ( 'NONE',  ( 1.000000000000000000, 0.0000000000000000000, 0.0000000000000000000 ) ) ;
#268 =( NAMED_UNIT ( * ) PLANE_ANGLE_UNIT ( ) SI_UNIT ( $, .RADIAN. ) );
#269 = DIRECTION ( 'NONE',  ( -0.9535826651341416937, 0.3011313679370973273, 0.0000000000000000000 ) ) ;
#270 = CLOSED_SHELL ( 'NONE', ( #41, #5, #32, #33, #57, #42, #8, #29, #30, #2, #36, #27 ) ) ;
#271 = LINE ( 'NONE', #11, #254 ) ;
#272 = ORIENTED_EDGE ( 'NONE', *, *, #38, .F. ) ;
#273 = AXIS2_PLACEMENT_3D ( 'NONE', #217, #278, #391 ) ;
#274 = ADVANCED_BREP_SHAPE_REPRESENTATION ( '1147118', ( #318, #224 ), #232 ) ;
#275 = LINE ( 'NONE', #199, #143 ) ;
#276 = ORIENTED_EDGE ( 'NONE', *, *, #6, .F. ) ;
#277 = DIRECTION ( 'NONE',  ( 0.3011313679370973273, 0.9535826651341416937, -0.0000000000000000000 ) ) ;
#278 = DIRECTION ( 'NONE',  ( -0.0000000000000000000, -1.000000000000000000, -0.0000000000000000000 ) ) ;
#279 = ORIENTED_EDGE ( 'NONE', *, *, #323, .T. ) ;
#280 = EDGE_CURVE ( 'NONE', #348, #288, #328, .T. ) ;
#281 = CARTESIAN_POINT ( 'NONE',  ( -8.000000000000000000, 3.000000000000000000, 8.500000000000000000 ) ) ;
#282 = FACE_OUTER_BOUND ( 'NONE', #140, .T. ) ;
#283 = VERTEX_POINT ( 'NONE', #112 ) ;
#284 = SURFACE_STYLE_USAGE ( .BOTH. , #157 ) ;
#285 = AXIS2_PLACEMENT_3D ( 'NONE', #20, #9, #406 ) ;
#286 = SURFACE_SIDE_STYLE ('',( #298 ) ) ;
#287 = PLANE ( 'NONE',  #76 ) ;
#288 = VERTEX_POINT ( 'NONE', #166 ) ;
#289 = VECTOR ( 'NONE', #60, 1000.000000000000000 ) ;
#290 = DIRECTION ( 'NONE',  ( 1.000000000000000000, 0.0000000000000000000, 0.0000000000000000000 ) ) ;
#291 = APPLICATION_CONTEXT ( 'automotive_design' ) ;
#292 = EDGE_CURVE ( 'NONE', #177, #103, #147, .T. ) ;
#293 = LINE ( 'NONE', #394, #264 ) ;
#294 = DIRECTION ( 'NONE',  ( 0.1733876835661140869, 0.05475400533666761188, 0.9833304175541246472 ) ) ;
#295 = CARTESIAN_POINT ( 'NONE',  ( 6.735557395310442023E-16, 10.00000000000000000, 5.500000000000000888 ) ) ;
#296 = VECTOR ( 'NONE', #221, 1000.000000000000000 ) ;
#297 = EDGE_LOOP ( 'NONE', ( #395, #235, #186, #279 ) ) ;
#298 = SURFACE_STYLE_FILL_AREA ( #44 ) ;
#299 = EDGE_CURVE ( 'NONE', #177, #145, #89, .T. ) ;
#300 = ORIENTED_EDGE ( 'NONE', *, *, #148, .F. ) ;
#301 = DIRECTION ( 'NONE',  ( -0.0000000000000000000, -0.0000000000000000000, -1.000000000000000000 ) ) ;
#302 = LINE ( 'NONE', #265, #56 ) ;
#303 =( LENGTH_UNIT ( ) NAMED_UNIT ( * ) SI_UNIT ( .MILLI., .METRE. ) );
#304 = ORIENTED_EDGE ( 'NONE', *, *, #51, .T. ) ;
#305 = LINE ( 'NONE', #124, #215 ) ;
#306 = ORIENTED_EDGE ( 'NONE', *, *, #6, .T. ) ;
#307 = CARTESIAN_POINT ( 'NONE',  ( 0.0000000000000000000, 10.00000000000000000, 5.944591164848680122E-16 ) ) ;
#308 = AXIS2_PLACEMENT_3D ( 'NONE', #307, #389, #16 ) ;
#309 = CARTESIAN_POINT ( 'NONE',  ( -8.000000000000000000, 3.000000000000000000, 8.500000000000000000 ) ) ;
#310 = CARTESIAN_POINT ( 'NONE',  ( -17.50000000000000000, 10.00000000000000000, -8.500000000000000000 ) ) ;
#311 = SURFACE_STYLE_FILL_AREA ( #127 ) ;
#312 = DIRECTION ( 'NONE',  ( 0.0000000000000000000, -0.0000000000000000000, -1.000000000000000000 ) ) ;
#313 = FACE_OUTER_BOUND ( 'NONE', #84, .T. ) ;
#314 = AXIS2_PLACEMENT_3D ( 'NONE', #233, #39, #259 ) ;
#315 = EDGE_CURVE ( 'NONE', #106, #288, #63, .T. ) ;
#316 = ORIENTED_EDGE ( 'NONE', *, *, #110, .F. ) ;
#317 = PLANE ( 'NONE',  #139 ) ;
#318 = MANIFOLD_SOLID_BREP ( 'Bohrung', #270 ) ;
#319 = VECTOR ( 'NONE', #83, 1000.000000000000000 ) ;
#320 = DIRECTION ( 'NONE',  ( 0.0000000000000000000, -1.000000000000000000, 0.0000000000000000000 ) ) ;
#321 = VERTEX_POINT ( 'NONE', #388 ) ;
#322 = FILL_AREA_STYLE_COLOUR ( '', #214 ) ;
#323 = EDGE_CURVE ( 'NONE', #145, #364, #339, .T. ) ;
#324 = AXIS2_PLACEMENT_3D ( 'NONE', #344, #22, #68 ) ;
#325 = FACE_BOUND ( 'NONE', #263, .T. ) ;
#326 = PLANE ( 'NONE',  #59 ) ;
#327 = ORIENTED_EDGE ( 'NONE', *, *, #86, .F. ) ;
#328 = LINE ( 'NONE', #116, #187 ) ;
#329 = EDGE_CURVE ( 'NONE', #288, #227, #242, .T. ) ;
#330 = ORIENTED_EDGE ( 'NONE', *, *, #360, .T. ) ;
#331 = ORIENTED_EDGE ( 'NONE', *, *, #359, .F. ) ;
#332 = CARTESIAN_POINT ( 'NONE',  ( 8.000000000000000000, 3.000000000000000000, 8.500000000000000000 ) ) ;
#333 = VECTOR ( 'NONE', #347, 1000.000000000000000 ) ;
#334 = AXIS2_PLACEMENT_3D ( 'NONE', #257, #338, #181 ) ;
#335 = EDGE_CURVE ( 'NONE', #321, #105, #403, .T. ) ;
#336 = EDGE_CURVE ( 'NONE', #74, #398, #352, .T. ) ;
#337 = VERTEX_POINT ( 'NONE', #128 ) ;
#338 = DIRECTION ( 'NONE',  ( -0.0000000000000000000, 0.0000000000000000000, 1.000000000000000000 ) ) ;
#339 = LINE ( 'NONE', #356, #319 ) ;
#340 = CARTESIAN_POINT ( 'NONE',  ( 17.50000000000000000, 10.00000000000000000, 8.500000000000000000 ) ) ;
#341 = EDGE_LOOP ( 'NONE', ( #126, #392, #151, #304 ) ) ;
#342 = DIRECTION ( 'NONE',  ( -0.0000000000000000000, -1.000000000000000000, -0.0000000000000000000 ) ) ;
#343 = FACE_OUTER_BOUND ( 'NONE', #150, .T. ) ;
#344 = CARTESIAN_POINT ( 'NONE',  ( -17.50000000000000000, -0.001000000000002734812, -8.500000000000000000 ) ) ;
#345 = EDGE_CURVE ( 'NONE', #55, #92, #18, .T. ) ;
#346 = ORIENTED_EDGE ( 'NONE', *, *, #81, .F. ) ;
#347 = DIRECTION ( 'NONE',  ( -9.912705577010325549E-17, 1.000000000000000000, -0.0000000000000000000 ) ) ;
#348 = VERTEX_POINT ( 'NONE', #131 ) ;
#349 = CARTESIAN_POINT ( 'NONE',  ( -8.000000000000000000, 3.000000000000000000, -8.500000000000000000 ) ) ;
#350 = CARTESIAN_POINT ( 'NONE',  ( 0.0000000000000000000, 0.0000000000000000000, -8.500000000000000000 ) ) ;
#351 = ORIENTED_EDGE ( 'NONE', *, *, #396, .F. ) ;
#352 = CIRCLE ( 'NONE', #252, 5.500000000000000000 ) ;
#353 =( GEOMETRIC_REPRESENTATION_CONTEXT ( 3 ) GLOBAL_UNCERTAINTY_ASSIGNED_CONTEXT ( ( #67 ) ) GLOBAL_UNIT_ASSIGNED_CONTEXT ( ( #303, #369, #255 ) ) REPRESENTATION_CONTEXT ( 'NONE', 'WORKASPACE' ) );
#354 = CARTESIAN_POINT ( 'NONE',  ( 14.50244132795608287, -0.0009999999999992653654, -8.500000000000000000 ) ) ;
#355 = MECHANICAL_DESIGN_GEOMETRIC_PRESENTATION_REPRESENTATION (  '', ( #80 ), #262 ) ;
#356 = CARTESIAN_POINT ( 'NONE',  ( 8.000000000000000000, 2.168404344971008868E-16, 8.500000000000000000 ) ) ;
#357 = PLANE ( 'NONE',  #334 ) ;
#358 = AXIS2_PLACEMENT_3D ( 'NONE', #387, #401, #377 ) ;
#359 = EDGE_CURVE ( 'NONE', #364, #321, #162, .T. ) ;
#360 = EDGE_CURVE ( 'NONE', #106, #105, #275, .T. ) ;
#361 = APPLICATION_PROTOCOL_DEFINITION ( 'draft international standard', 'automotive_design', 1998, #79 ) ;
#362 = ORIENTED_EDGE ( 'NONE', *, *, #65, .F. ) ;
#363 = VECTOR ( 'NONE', #101, 1000.000000000000000 ) ;
#364 = VERTEX_POINT ( 'NONE', #175 ) ;
#365 = PLANE ( 'NONE',  #236 ) ;
#366 = ORIENTED_EDGE ( 'NONE', *, *, #158, .T. ) ;
#367 = EDGE_CURVE ( 'NONE', #55, #398, #234, .T. ) ;
#368 = PRODUCT_DEFINITION_SHAPE ( 'NONE', 'NONE',  #71 ) ;
#369 =( NAMED_UNIT ( * ) PLANE_ANGLE_UNIT ( ) SI_UNIT ( $, .RADIAN. ) );
#370 = VECTOR ( 'NONE', #99, 999.9999999999998863 ) ;
#371 = FACE_OUTER_BOUND ( 'NONE', #247, .T. ) ;
#372 = CARTESIAN_POINT ( 'NONE',  ( 0.0000000000000000000, 17.00000000000000000, 5.944591164848680122E-16 ) ) ;
#373 = ORIENTED_EDGE ( 'NONE', *, *, #148, .T. ) ;
#374 = DIRECTION ( 'NONE',  ( 0.0000000000000000000, 0.0000000000000000000, -1.000000000000000000 ) ) ;
#375 = CARTESIAN_POINT ( 'NONE',  ( -8.000000000000000000, 2.168404344971008868E-16, 8.500000000000000000 ) ) ;
#376 = EDGE_LOOP ( 'NONE', ( #330, #118, #382, #251 ) ) ;
#377 = DIRECTION ( 'NONE',  ( 0.1736481776669313026, 0.0000000000000000000, 0.9848077530122079093 ) ) ;
#378 = ORIENTED_EDGE ( 'NONE', *, *, #329, .T. ) ;
#379 = PRESENTATION_LAYER_ASSIGNMENT (  '', '', ( #191 ) ) ;
#380 = VECTOR ( 'NONE', #62, 999.9999999999998863 ) ;
#381 = DIRECTION ( 'NONE',  ( 0.0000000000000000000, -1.000000000000000000, 0.0000000000000000000 ) ) ;
#382 = ORIENTED_EDGE ( 'NONE', *, *, #280, .T. ) ;
#383 = PLANE ( 'NONE',  #358 ) ;
#384 = VECTOR ( 'NONE', #122, 1000.000000000000114 ) ;
#385 = CYLINDRICAL_SURFACE ( 'NONE', #273, 5.500000000000000000 ) ;
#386 = ORIENTED_EDGE ( 'NONE', *, *, #345, .F. ) ;
#387 = CARTESIAN_POINT ( 'NONE',  ( 17.50000000000000000, -0.0009999999999992653654, 8.500000000000000000 ) ) ;
#388 = CARTESIAN_POINT ( 'NONE',  ( 8.000000000000000000, 3.000000000000000000, -8.500000000000000000 ) ) ;
#389 = DIRECTION ( 'NONE',  ( 0.0000000000000000000, -1.000000000000000000, 0.0000000000000000000 ) ) ;
#390 = VERTEX_POINT ( 'NONE', #179 ) ;
#391 = DIRECTION ( 'NONE',  ( 0.0000000000000000000, 0.0000000000000000000, -1.000000000000000000 ) ) ;
#392 = ORIENTED_EDGE ( 'NONE', *, *, #292, .F. ) ;
#393 = VECTOR ( 'NONE', #88, 1000.000000000000000 ) ;
#394 = CARTESIAN_POINT ( 'NONE',  ( 8.000000000000000000, 2.168404344971008868E-16, 8.500000000000000000 ) ) ;
#395 = ORIENTED_EDGE ( 'NONE', *, *, #359, .T. ) ;
#396 = EDGE_CURVE ( 'NONE', #218, #103, #34, .T. ) ;
#397 = VECTOR ( 'NONE', #290, 1000.000000000000000 ) ;
#398 = VERTEX_POINT ( 'NONE', #195 ) ;
#399 = EDGE_LOOP ( 'NONE', ( #35, #346 ) ) ;
#400 = UNCERTAINTY_MEASURE_WITH_UNIT (LENGTH_MEASURE( 1.000000000000000082E-05 ), #185, 'distance_accuracy_value', 'NONE');
#401 = DIRECTION ( 'NONE',  ( -0.9848077530122079093, -9.762109305567119065E-17, 0.1736481776669313026 ) ) ;
#402 = ORIENTED_EDGE ( 'NONE', *, *, #26, .T. ) ;
#403 = LINE ( 'NONE', #90, #380 ) ;
#404 = ORIENTED_EDGE ( 'NONE', *, *, #329, .F. ) ;
#405 = MECHANICAL_DESIGN_GEOMETRIC_PRESENTATION_REPRESENTATION (  '', ( #191 ), #353 ) ;
#406 = DIRECTION ( 'NONE',  ( -0.9535826651341416937, -0.3011313679370973273, 0.0000000000000000000 ) ) ;
#407 = VECTOR ( 'NONE', #163, 1000.000000000000000 ) ;
#408 = AXIS2_PLACEMENT_3D ( 'NONE', #372, #342, #374 ) ;
ENDSEC;
END-ISO-10303-21;
