ISO-10303-21;
HEADER;
FILE_DESCRIPTION (( 'STEP AP214' ),
    '1' );
FILE_NAME ('2046568.stp',
    '2017-05-23T12:23:42',
    ( '' ),
    ( '' ),
    'SwSTEP 2.0',
    'SolidWorks 2016',
    '' );
FILE_SCHEMA (( 'AUTOMOTIVE_DESIGN' ));
ENDSEC;

DATA;
#1 = DIRECTION ( 'NONE',  ( 1.000000000000000000, 0.0000000000000000000, 0.0000000000000000000 ) ) ;
#2 = CARTESIAN_POINT ( 'NONE',  ( -14.80000000000000100, 1.812477262738082500E-015, -3000.000000000000000 ) ) ;
#3 = CYLINDRICAL_SURFACE ( 'NONE', #118, 16.00000000000000000 ) ;
#4 = DIRECTION ( 'NONE',  ( 1.000000000000000000, 0.0000000000000000000, 0.0000000000000000000 ) ) ;
#5 = CARTESIAN_POINT ( 'NONE',  ( 0.0000000000000000000, 0.0000000000000000000, 0.0000000000000000000 ) ) ;
#6 = DIRECTION ( 'NONE',  ( 0.0000000000000000000, 0.0000000000000000000, 1.000000000000000000 ) ) ;
#7 = PRODUCT_DEFINITION_SHAPE ( 'NONE', 'NONE',  #134 ) ;
#8 = VERTEX_POINT ( 'NONE', #85 ) ;
#9 = FACE_OUTER_BOUND ( 'NONE', #107, .T. ) ;
#10 = EDGE_CURVE ( 'NONE', #28, #119, #84, .T. ) ;
#11 = CYLINDRICAL_SURFACE ( 'NONE', #161, 14.80000000000000100 ) ;
#12 = PRESENTATION_STYLE_ASSIGNMENT (( #30 ) ) ;
#13 = FACE_OUTER_BOUND ( 'NONE', #42, .T. ) ;
#14 = SURFACE_STYLE_USAGE ( .BOTH. , #52 ) ;
#15 = FACE_BOUND ( 'NONE', #61, .T. ) ;
#16 = CARTESIAN_POINT ( 'NONE',  ( -16.00000000000000000, 1.959434878635765100E-015, -3000.000000000000000 ) ) ;
#17 = FACE_OUTER_BOUND ( 'NONE', #196, .T. ) ;
#18 = APPLICATION_PROTOCOL_DEFINITION ( 'draft international standard', 'automotive_design', 1998, #188 ) ;
#19 = CARTESIAN_POINT ( 'NONE',  ( 16.00000000000000000, 0.0000000000000000000, -3000.000000000000000 ) ) ;
#20 = DIRECTION ( 'NONE',  ( 0.0000000000000000000, 0.0000000000000000000, 1.000000000000000000 ) ) ;
#21 = VECTOR ( 'NONE', #112, 1000.000000000000000 ) ;
#22 = CARTESIAN_POINT ( 'NONE',  ( 0.0000000000000000000, 0.0000000000000000000, 0.0000000000000000000 ) ) ;
#23 = AXIS2_PLACEMENT_3D ( 'NONE', #171, #178, #38 ) ;
#24 = ORIENTED_EDGE ( 'NONE', *, *, #190, .T. ) ;
#25 = ORIENTED_EDGE ( 'NONE', *, *, #51, .T. ) ;
#26 = ORIENTED_EDGE ( 'NONE', *, *, #10, .F. ) ;
#27 =( GEOMETRIC_REPRESENTATION_CONTEXT ( 3 ) GLOBAL_UNCERTAINTY_ASSIGNED_CONTEXT ( ( #194 ) ) GLOBAL_UNIT_ASSIGNED_CONTEXT ( ( #122, #177, #183 ) ) REPRESENTATION_CONTEXT ( 'NONE', 'WORKASPACE' ) );
#28 = VERTEX_POINT ( 'NONE', #16 ) ;
#29 = AXIS2_PLACEMENT_3D ( 'NONE', #86, #147, #145 ) ;
#30 = SURFACE_STYLE_USAGE ( .BOTH. , #141 ) ;
#31 = CLOSED_SHELL ( 'NONE', ( #79, #73, #137, #93, #139, #75 ) ) ;
#32 = DIRECTION ( 'NONE',  ( 0.0000000000000000000, 0.0000000000000000000, 1.000000000000000000 ) ) ;
#33 = FACE_OUTER_BOUND ( 'NONE', #143, .T. ) ;
#34 = CARTESIAN_POINT ( 'NONE',  ( -16.00000000000000000, 1.959434878635765100E-015, -3000.000000000000000 ) ) ;
#35 = AXIS2_PLACEMENT_3D ( 'NONE', #5, #6, #1 ) ;
#36 = DIRECTION ( 'NONE',  ( 0.0000000000000000000, 0.0000000000000000000, 1.000000000000000000 ) ) ;
#37 = CYLINDRICAL_SURFACE ( 'NONE', #198, 14.80000000000000100 ) ;
#38 = DIRECTION ( 'NONE',  ( 1.000000000000000000, 0.0000000000000000000, 0.0000000000000000000 ) ) ;
#39 = CARTESIAN_POINT ( 'NONE',  ( -14.80000000000000100, 1.812477262738082500E-015, -3000.000000000000000 ) ) ;
#40 = DIRECTION ( 'NONE',  ( 0.0000000000000000000, 0.0000000000000000000, 1.000000000000000000 ) ) ;
#41 = UNCERTAINTY_MEASURE_WITH_UNIT (LENGTH_MEASURE( 1.000000000000000100E-005 ), #43, 'distance_accuracy_value', 'NONE');
#42 = EDGE_LOOP ( 'NONE', ( #180, #191, #149, #207 ) ) ;
#43 =( LENGTH_UNIT ( ) NAMED_UNIT ( * ) SI_UNIT ( .MILLI., .METRE. ) );
#44 = CIRCLE ( 'NONE', #62, 16.00000000000000000 ) ;
#45 = EDGE_CURVE ( 'NONE', #121, #8, #63, .T. ) ;
#46 = FACE_OUTER_BOUND ( 'NONE', #98, .T. ) ;
#47 = COLOUR_RGB ( '',0.7529411764705882200, 0.7529411764705882200, 0.7529411764705882200 ) ;
#48 = DIRECTION ( 'NONE',  ( 0.0000000000000000000, 0.0000000000000000000, 1.000000000000000000 ) ) ;
#49 = FILL_AREA_STYLE_COLOUR ( '', #47 ) ;
#50 = VECTOR ( 'NONE', #127, 1000.000000000000000 ) ;
#51 = EDGE_CURVE ( 'NONE', #28, #125, #71, .T. ) ;
#52 = SURFACE_SIDE_STYLE ('',( #136 ) ) ;
#53 = DIRECTION ( 'NONE',  ( 0.0000000000000000000, 0.0000000000000000000, 1.000000000000000000 ) ) ;
#54 = ORIENTED_EDGE ( 'NONE', *, *, #168, .F. ) ;
#55 = PRESENTATION_STYLE_ASSIGNMENT (( #14 ) ) ;
#56 = CARTESIAN_POINT ( 'NONE',  ( -16.00000000000000000, 1.959434878635765100E-015, 0.0000000000000000000 ) ) ;
#57 = EDGE_CURVE ( 'NONE', #121, #200, #67, .T. ) ;
#58 = FILL_AREA_STYLE ('',( #109 ) ) ;
#59 = CARTESIAN_POINT ( 'NONE',  ( 0.0000000000000000000, 0.0000000000000000000, -3000.000000000000000 ) ) ;
#60 =( GEOMETRIC_REPRESENTATION_CONTEXT ( 3 ) GLOBAL_UNCERTAINTY_ASSIGNED_CONTEXT ( ( #41 ) ) GLOBAL_UNIT_ASSIGNED_CONTEXT ( ( #43, #187, #205 ) ) REPRESENTATION_CONTEXT ( 'NONE', 'WORKASPACE' ) );
#61 = EDGE_LOOP ( 'NONE', ( #166, #202 ) ) ;
#62 = AXIS2_PLACEMENT_3D ( 'NONE', #92, #48, #199 ) ;
#63 = LINE ( 'NONE', #2, #50 ) ;
#64 = DIRECTION ( 'NONE',  ( 1.000000000000000000, 0.0000000000000000000, 0.0000000000000000000 ) ) ;
#65 = FACE_OUTER_BOUND ( 'NONE', #135, .T. ) ;
#66 = STYLED_ITEM ( 'NONE', ( #55 ), #94 ) ;
#67 = CIRCLE ( 'NONE', #116, 14.80000000000000100 ) ;
#68 = VECTOR ( 'NONE', #128, 1000.000000000000000 ) ;
#69 = CARTESIAN_POINT ( 'NONE',  ( 14.80000000000000100, 0.0000000000000000000, 0.0000000000000000000 ) ) ;
#70 = MECHANICAL_DESIGN_GEOMETRIC_PRESENTATION_REPRESENTATION (  '', ( #100 ), #105 ) ;
#71 = LINE ( 'NONE', #34, #68 ) ;
#72 = LINE ( 'NONE', #201, #80 ) ;
#73 = ADVANCED_FACE ( 'NONE', ( #33 ), #3, .T. ) ;
#74 = CIRCLE ( 'NONE', #208, 14.80000000000000100 ) ;
#75 = ADVANCED_FACE ( 'NONE', ( #46 ), #11, .F. ) ;
#76 = ORIENTED_EDGE ( 'NONE', *, *, #133, .T. ) ;
#77 = CIRCLE ( 'NONE', #35, 16.00000000000000000 ) ;
#78 = EDGE_CURVE ( 'NONE', #200, #138, #172, .T. ) ;
#79 = ADVANCED_FACE ( 'NONE', ( #13 ), #37, .F. ) ;
#80 = VECTOR ( 'NONE', #157, 1000.000000000000000 ) ;
#81 = DIRECTION ( 'NONE',  ( 0.0000000000000000000, 0.0000000000000000000, 1.000000000000000000 ) ) ;
#82 = CARTESIAN_POINT ( 'NONE',  ( 14.80000000000000100, 0.0000000000000000000, -3000.000000000000000 ) ) ;
#83 = PRESENTATION_LAYER_ASSIGNMENT (  '', '', ( #100 ) ) ;
#84 = CIRCLE ( 'NONE', #170, 16.00000000000000000 ) ;
#85 = CARTESIAN_POINT ( 'NONE',  ( -14.80000000000000100, 1.812477262738082500E-015, 0.0000000000000000000 ) ) ;
#86 = CARTESIAN_POINT ( 'NONE',  ( 0.0000000000000000000, 0.0000000000000000000, 0.0000000000000000000 ) ) ;
#87 = AXIS2_PLACEMENT_3D ( 'NONE', #189, #210, #4 ) ;
#88 = CYLINDRICAL_SURFACE ( 'NONE', #153, 16.00000000000000000 ) ;
#89 = CARTESIAN_POINT ( 'NONE',  ( 0.0000000000000000000, 0.0000000000000000000, 0.0000000000000000000 ) ) ;
#90 = DIRECTION ( 'NONE',  ( 0.0000000000000000000, 0.0000000000000000000, 1.000000000000000000 ) ) ;
#91 = ORIENTED_EDGE ( 'NONE', *, *, #51, .F. ) ;
#92 = CARTESIAN_POINT ( 'NONE',  ( 0.0000000000000000000, 0.0000000000000000000, -3000.000000000000000 ) ) ;
#93 = ADVANCED_FACE ( 'NONE', ( #15, #17 ), #110, .F. ) ;
#94 = ADVANCED_BREP_SHAPE_REPRESENTATION ( '2046568', ( #123, #140 ), #60 ) ;
#95 = FACE_BOUND ( 'NONE', #97, .T. ) ;
#96 = CIRCLE ( 'NONE', #87, 14.80000000000000100 ) ;
#97 = EDGE_LOOP ( 'NONE', ( #164, #54 ) ) ;
#98 = EDGE_LOOP ( 'NONE', ( #211, #131, #114, #108 ) ) ;
#99 = CIRCLE ( 'NONE', #165, 16.00000000000000000 ) ;
#100 = STYLED_ITEM ( 'NONE', ( #12 ), #123 ) ;
#101 = PRODUCT_RELATED_PRODUCT_CATEGORY ( 'part', '', ( #167 ) ) ;
#102 = CIRCLE ( 'NONE', #23, 14.80000000000000100 ) ;
#103 = PRESENTATION_LAYER_ASSIGNMENT (  '', '', ( #66 ) ) ;
#104 = DIRECTION ( 'NONE',  ( 0.0000000000000000000, 0.0000000000000000000, 1.000000000000000000 ) ) ;
#105 =( GEOMETRIC_REPRESENTATION_CONTEXT ( 3 ) GLOBAL_UNCERTAINTY_ASSIGNED_CONTEXT ( ( #195 ) ) GLOBAL_UNIT_ASSIGNED_CONTEXT ( ( #126, #197, #132 ) ) REPRESENTATION_CONTEXT ( 'NONE', 'WORKASPACE' ) );
#106 = DIRECTION ( 'NONE',  ( 1.000000000000000000, 0.0000000000000000000, 0.0000000000000000000 ) ) ;
#107 = EDGE_LOOP ( 'NONE', ( #24, #152 ) ) ;
#108 = ORIENTED_EDGE ( 'NONE', *, *, #142, .T. ) ;
#109 = FILL_AREA_STYLE_COLOUR ( '', #146 ) ;
#110 = PLANE ( 'NONE',  #186 ) ;
#111 = MECHANICAL_DESIGN_GEOMETRIC_PRESENTATION_REPRESENTATION (  '', ( #66 ), #27 ) ;
#112 = DIRECTION ( 'NONE',  ( 0.0000000000000000000, 0.0000000000000000000, 1.000000000000000000 ) ) ;
#113 = CARTESIAN_POINT ( 'NONE',  ( 14.80000000000000100, 0.0000000000000000000, -3000.000000000000000 ) ) ;
#114 = ORIENTED_EDGE ( 'NONE', *, *, #78, .T. ) ;
#115 = CARTESIAN_POINT ( 'NONE',  ( 0.0000000000000000000, 0.0000000000000000000, -3000.000000000000000 ) ) ;
#116 = AXIS2_PLACEMENT_3D ( 'NONE', #181, #20, #204 ) ;
#117 = ORIENTED_EDGE ( 'NONE', *, *, #160, .F. ) ;
#118 = AXIS2_PLACEMENT_3D ( 'NONE', #159, #32, #155 ) ;
#119 = VERTEX_POINT ( 'NONE', #19 ) ;
#120 = PRODUCT_DEFINITION_FORMATION_WITH_SPECIFIED_SOURCE ( 'ANY', '', #167, .NOT_KNOWN. ) ;
#121 = VERTEX_POINT ( 'NONE', #39 ) ;
#122 =( LENGTH_UNIT ( ) NAMED_UNIT ( * ) SI_UNIT ( .MILLI., .METRE. ) );
#123 = MANIFOLD_SOLID_BREP ( 'Rohr St', #31 ) ;
#124 = CARTESIAN_POINT ( 'NONE',  ( 0.0000000000000000000, 0.0000000000000000000, 0.0000000000000000000 ) ) ;
#125 = VERTEX_POINT ( 'NONE', #56 ) ;
#126 =( LENGTH_UNIT ( ) NAMED_UNIT ( * ) SI_UNIT ( .MILLI., .METRE. ) );
#127 = DIRECTION ( 'NONE',  ( 0.0000000000000000000, 0.0000000000000000000, 1.000000000000000000 ) ) ;
#128 = DIRECTION ( 'NONE',  ( 0.0000000000000000000, 0.0000000000000000000, 1.000000000000000000 ) ) ;
#129 = DIRECTION ( 'NONE',  ( 0.0000000000000000000, 0.0000000000000000000, 1.000000000000000000 ) ) ;
#130 = CARTESIAN_POINT ( 'NONE',  ( 0.0000000000000000000, 0.0000000000000000000, -3000.000000000000000 ) ) ;
#131 = ORIENTED_EDGE ( 'NONE', *, *, #182, .F. ) ;
#132 =( NAMED_UNIT ( * ) SI_UNIT ( $, .STERADIAN. ) SOLID_ANGLE_UNIT ( ) );
#133 = EDGE_CURVE ( 'NONE', #119, #209, #72, .T. ) ;
#134 = PRODUCT_DEFINITION ( 'UNKNOWN', '', #120, #148 ) ;
#135 = EDGE_LOOP ( 'NONE', ( #91, #156, #76, #163 ) ) ;
#136 = SURFACE_STYLE_FILL_AREA ( #58 ) ;
#137 = ADVANCED_FACE ( 'NONE', ( #65 ), #88, .T. ) ;
#138 = VERTEX_POINT ( 'NONE', #69 ) ;
#139 = ADVANCED_FACE ( 'NONE', ( #95, #9 ), #158, .T. ) ;
#140 = AXIS2_PLACEMENT_3D ( 'NONE', #124, #144, #175 ) ;
#141 = SURFACE_SIDE_STYLE ('',( #192 ) ) ;
#142 = EDGE_CURVE ( 'NONE', #138, #8, #74, .T. ) ;
#143 = EDGE_LOOP ( 'NONE', ( #179, #25, #169, #176 ) ) ;
#144 = DIRECTION ( 'NONE',  ( 0.0000000000000000000, 0.0000000000000000000, 1.000000000000000000 ) ) ;
#145 = DIRECTION ( 'NONE',  ( 1.000000000000000000, 0.0000000000000000000, -0.0000000000000000000 ) ) ;
#146 = COLOUR_RGB ( '',0.7529411764705882200, 0.7529411764705882200, 0.7529411764705882200 ) ;
#147 = DIRECTION ( 'NONE',  ( 0.0000000000000000000, 0.0000000000000000000, 1.000000000000000000 ) ) ;
#148 = PRODUCT_DEFINITION_CONTEXT ( 'detailed design', #203, 'design' ) ;
#149 = ORIENTED_EDGE ( 'NONE', *, *, #168, .T. ) ;
#150 = CARTESIAN_POINT ( 'NONE',  ( 0.0000000000000000000, 0.0000000000000000000, -3000.000000000000000 ) ) ;
#151 = DIRECTION ( 'NONE',  ( 1.000000000000000000, 0.0000000000000000000, 0.0000000000000000000 ) ) ;
#152 = ORIENTED_EDGE ( 'NONE', *, *, #154, .T. ) ;
#153 = AXIS2_PLACEMENT_3D ( 'NONE', #206, #40, #184 ) ;
#154 = EDGE_CURVE ( 'NONE', #125, #209, #77, .T. ) ;
#155 = DIRECTION ( 'NONE',  ( 1.000000000000000000, 0.0000000000000000000, 0.0000000000000000000 ) ) ;
#156 = ORIENTED_EDGE ( 'NONE', *, *, #10, .T. ) ;
#157 = DIRECTION ( 'NONE',  ( 0.0000000000000000000, 0.0000000000000000000, 1.000000000000000000 ) ) ;
#158 = PLANE ( 'NONE',  #29 ) ;
#159 = CARTESIAN_POINT ( 'NONE',  ( 0.0000000000000000000, 0.0000000000000000000, -3000.000000000000000 ) ) ;
#160 = EDGE_CURVE ( 'NONE', #119, #28, #44, .T. ) ;
#161 = AXIS2_PLACEMENT_3D ( 'NONE', #59, #53, #174 ) ;
#162 = DIRECTION ( 'NONE',  ( 1.000000000000000000, 0.0000000000000000000, -0.0000000000000000000 ) ) ;
#163 = ORIENTED_EDGE ( 'NONE', *, *, #154, .F. ) ;
#164 = ORIENTED_EDGE ( 'NONE', *, *, #142, .F. ) ;
#165 = AXIS2_PLACEMENT_3D ( 'NONE', #22, #36, #151 ) ;
#166 = ORIENTED_EDGE ( 'NONE', *, *, #182, .T. ) ;
#167 = PRODUCT ( '2046568', '2046568', '', ( #173 ) ) ;
#168 = EDGE_CURVE ( 'NONE', #8, #138, #96, .T. ) ;
#169 = ORIENTED_EDGE ( 'NONE', *, *, #190, .F. ) ;
#170 = AXIS2_PLACEMENT_3D ( 'NONE', #130, #129, #214 ) ;
#171 = CARTESIAN_POINT ( 'NONE',  ( 0.0000000000000000000, 0.0000000000000000000, -3000.000000000000000 ) ) ;
#172 = LINE ( 'NONE', #113, #21 ) ;
#173 = PRODUCT_CONTEXT ( 'NONE', #188, 'mechanical' ) ;
#174 = DIRECTION ( 'NONE',  ( 1.000000000000000000, 0.0000000000000000000, 0.0000000000000000000 ) ) ;
#175 = DIRECTION ( 'NONE',  ( 1.000000000000000000, 0.0000000000000000000, 0.0000000000000000000 ) ) ;
#176 = ORIENTED_EDGE ( 'NONE', *, *, #133, .F. ) ;
#177 =( NAMED_UNIT ( * ) PLANE_ANGLE_UNIT ( ) SI_UNIT ( $, .RADIAN. ) );
#178 = DIRECTION ( 'NONE',  ( 0.0000000000000000000, 0.0000000000000000000, 1.000000000000000000 ) ) ;
#179 = ORIENTED_EDGE ( 'NONE', *, *, #160, .T. ) ;
#180 = ORIENTED_EDGE ( 'NONE', *, *, #57, .F. ) ;
#181 = CARTESIAN_POINT ( 'NONE',  ( 0.0000000000000000000, 0.0000000000000000000, -3000.000000000000000 ) ) ;
#182 = EDGE_CURVE ( 'NONE', #200, #121, #102, .T. ) ;
#183 =( NAMED_UNIT ( * ) SI_UNIT ( $, .STERADIAN. ) SOLID_ANGLE_UNIT ( ) );
#184 = DIRECTION ( 'NONE',  ( 1.000000000000000000, 0.0000000000000000000, 0.0000000000000000000 ) ) ;
#185 = FILL_AREA_STYLE ('',( #49 ) ) ;
#186 = AXIS2_PLACEMENT_3D ( 'NONE', #150, #104, #162 ) ;
#187 =( NAMED_UNIT ( * ) PLANE_ANGLE_UNIT ( ) SI_UNIT ( $, .RADIAN. ) );
#188 = APPLICATION_CONTEXT ( 'automotive_design' ) ;
#189 = CARTESIAN_POINT ( 'NONE',  ( 0.0000000000000000000, 0.0000000000000000000, 0.0000000000000000000 ) ) ;
#190 = EDGE_CURVE ( 'NONE', #209, #125, #99, .T. ) ;
#191 = ORIENTED_EDGE ( 'NONE', *, *, #45, .T. ) ;
#192 = SURFACE_STYLE_FILL_AREA ( #185 ) ;
#193 = SHAPE_DEFINITION_REPRESENTATION ( #7, #94 ) ;
#194 = UNCERTAINTY_MEASURE_WITH_UNIT (LENGTH_MEASURE( 1.000000000000000100E-005 ), #122, 'distance_accuracy_value', 'NONE');
#195 = UNCERTAINTY_MEASURE_WITH_UNIT (LENGTH_MEASURE( 1.000000000000000100E-005 ), #126, 'distance_accuracy_value', 'NONE');
#196 = EDGE_LOOP ( 'NONE', ( #117, #26 ) ) ;
#197 =( NAMED_UNIT ( * ) PLANE_ANGLE_UNIT ( ) SI_UNIT ( $, .RADIAN. ) );
#198 = AXIS2_PLACEMENT_3D ( 'NONE', #115, #81, #106 ) ;
#199 = DIRECTION ( 'NONE',  ( 1.000000000000000000, 0.0000000000000000000, 0.0000000000000000000 ) ) ;
#200 = VERTEX_POINT ( 'NONE', #82 ) ;
#201 = CARTESIAN_POINT ( 'NONE',  ( 16.00000000000000000, 0.0000000000000000000, -3000.000000000000000 ) ) ;
#202 = ORIENTED_EDGE ( 'NONE', *, *, #57, .T. ) ;
#203 = APPLICATION_CONTEXT ( 'automotive_design' ) ;
#204 = DIRECTION ( 'NONE',  ( 1.000000000000000000, 0.0000000000000000000, 0.0000000000000000000 ) ) ;
#205 =( NAMED_UNIT ( * ) SI_UNIT ( $, .STERADIAN. ) SOLID_ANGLE_UNIT ( ) );
#206 = CARTESIAN_POINT ( 'NONE',  ( 0.0000000000000000000, 0.0000000000000000000, -3000.000000000000000 ) ) ;
#207 = ORIENTED_EDGE ( 'NONE', *, *, #78, .F. ) ;
#208 = AXIS2_PLACEMENT_3D ( 'NONE', #89, #90, #64 ) ;
#209 = VERTEX_POINT ( 'NONE', #212 ) ;
#210 = DIRECTION ( 'NONE',  ( 0.0000000000000000000, 0.0000000000000000000, 1.000000000000000000 ) ) ;
#211 = ORIENTED_EDGE ( 'NONE', *, *, #45, .F. ) ;
#212 = CARTESIAN_POINT ( 'NONE',  ( 16.00000000000000000, 0.0000000000000000000, 0.0000000000000000000 ) ) ;
#213 = APPLICATION_PROTOCOL_DEFINITION ( 'draft international standard', 'automotive_design', 1998, #203 ) ;
#214 = DIRECTION ( 'NONE',  ( 1.000000000000000000, 0.0000000000000000000, 0.0000000000000000000 ) ) ;
ENDSEC;
END-ISO-10303-21;
