ISO-10303-21;
HEADER;
FILE_DESCRIPTION (( 'STEP AP214' ),
    '1' );
FILE_NAME ('6290124.stp',
    '2016-06-22T06:03:34',
    ( '' ),
    ( '' ),
    'SwSTEP 2.0',
    'SolidWorks 2014',
    '' );
FILE_SCHEMA (( 'AUTOMOTIVE_DESIGN' ));
ENDSEC;

DATA;
#1 = UNCERTAINTY_MEASURE_WITH_UNIT (LENGTH_MEASURE( 1.000000000000000100E-005 ), #53, 'distance_accuracy_value', 'NONE');
#2 = ADVANCED_FACE ( 'NONE', ( #162 ), #226, .F. ) ;
#3 = PRODUCT_DEFINITION_SHAPE ( 'NONE', 'NONE',  #31 ) ;
#4 = EDGE_CURVE ( 'NONE', #213, #234, #155, .T. ) ;
#5 = ADVANCED_FACE ( 'NONE', ( #18 ), #161, .T. ) ;
#6 = PRODUCT_DEFINITION_FORMATION_WITH_SPECIFIED_SOURCE ( 'ANY', '', #13, .NOT_KNOWN. ) ;
#7 = SHAPE_DEFINITION_REPRESENTATION ( #41, #128 ) ;
#8 = PRODUCT_RELATED_PRODUCT_CATEGORY ( 'part', '', ( #164 ) ) ;
#9 = DIRECTION ( 'NONE',  ( 0.0000000000000000000, -0.0000000000000000000, -1.000000000000000000 ) ) ;
#10 = PRODUCT_DEFINITION_SHAPE ( 'NONE', 'NONE',  #243 ) ;
#11 = PRODUCT_DEFINITION_FORMATION_WITH_SPECIFIED_SOURCE ( 'ANY', '', #164, .NOT_KNOWN. ) ;
#12 = CARTESIAN_POINT ( 'NONE',  ( -40.50000000000000700, -3.000000000000000000, -62.00000000000000000 ) ) ;
#13 = PRODUCT ( '000255T1_Standard', '000255T1_Standard', '', ( #21 ) ) ;
#14 =( REPRESENTATION_RELATIONSHIP ('NONE','NONE', #128, #209 ) REPRESENTATION_RELATIONSHIP_WITH_TRANSFORMATION ( #143 )SHAPE_REPRESENTATION_RELATIONSHIP( ) );
#15 = ORIENTED_EDGE ( 'NONE', *, *, #59, .F. ) ;
#16 = ADVANCED_FACE ( 'NONE', ( #154 ), #129, .T. ) ;
#17 = VERTEX_POINT ( 'NONE', #74 ) ;
#18 = FACE_OUTER_BOUND ( 'NONE', #138, .T. ) ;
#19 = APPLICATION_PROTOCOL_DEFINITION ( 'draft international standard', 'automotive_design', 1998, #20 ) ;
#20 = APPLICATION_CONTEXT ( 'automotive_design' ) ;
#21 = PRODUCT_CONTEXT ( 'NONE', #37, 'mechanical' ) ;
#22 = APPLICATION_PROTOCOL_DEFINITION ( 'draft international standard', 'automotive_design', 1998, #37 ) ;
#23 = APPLICATION_PROTOCOL_DEFINITION ( 'draft international standard', 'automotive_design', 1998, #26 ) ;
#24 = VERTEX_POINT ( 'NONE', #70 ) ;
#25 = ORIENTED_EDGE ( 'NONE', *, *, #232, .T. ) ;
#26 = APPLICATION_CONTEXT ( 'automotive_design' ) ;
#27 = PRODUCT_DEFINITION ( 'UNKNOWN', '', #11, #179 ) ;
#28 = DIRECTION ( 'NONE',  ( -1.000000000000000000, 0.0000000000000000000, -0.0000000000000000000 ) ) ;
#29 = ORIENTED_EDGE ( 'NONE', *, *, #233, .F. ) ;
#30 = DIRECTION ( 'NONE',  ( 0.0000000000000000000, 0.0000000000000000000, -1.000000000000000000 ) ) ;
#31 = PRODUCT_DEFINITION ( 'UNKNOWN', '', #6, #99 ) ;
#32 = PRODUCT_CONTEXT ( 'NONE', #35, 'mechanical' ) ;
#33 = CLOSED_SHELL ( 'NONE', ( #16, #149, #5, #49, #176, #2 ) ) ;
#34 = APPLICATION_PROTOCOL_DEFINITION ( 'draft international standard', 'automotive_design', 1998, #35 ) ;
#35 = APPLICATION_CONTEXT ( 'automotive_design' ) ;
#36 = AXIS2_PLACEMENT_3D ( 'NONE', #98, #39, #38 ) ;
#37 = APPLICATION_CONTEXT ( 'automotive_design' ) ;
#38 = DIRECTION ( 'NONE',  ( 1.000000000000000000, 0.0000000000000000000, 0.0000000000000000000 ) ) ;
#39 = DIRECTION ( 'NONE',  ( 0.0000000000000000000, 0.0000000000000000000, 1.000000000000000000 ) ) ;
#40 = DIRECTION ( 'NONE',  ( 0.0000000000000000000, 1.000000000000000000, 0.0000000000000000000 ) ) ;
#41 = PRODUCT_DEFINITION_SHAPE ( 'NONE', 'NONE',  #27 ) ;
#42 = CARTESIAN_POINT ( 'NONE',  ( -40.50000000000000000, -3.000000000000000000, -61.99999999999997900 ) ) ;
#43 =( GEOMETRIC_REPRESENTATION_CONTEXT ( 3 ) GLOBAL_UNCERTAINTY_ASSIGNED_CONTEXT ( ( #1 ) ) GLOBAL_UNIT_ASSIGNED_CONTEXT ( ( #53, #52, #46 ) ) REPRESENTATION_CONTEXT ( 'NONE', 'WORKASPACE' ) );
#44 = PRESENTATION_STYLE_ASSIGNMENT (( #76 ) ) ;
#45 = SURFACE_STYLE_FILL_AREA ( #80 ) ;
#46 =( NAMED_UNIT ( * ) SI_UNIT ( $, .STERADIAN. ) SOLID_ANGLE_UNIT ( ) );
#47 = EDGE_CURVE ( 'NONE', #191, #213, #160, .T. ) ;
#48 = AXIS2_PLACEMENT_3D ( 'NONE', #57, #55, #54 ) ;
#49 = ADVANCED_FACE ( 'NONE', ( #122 ), #133, .T. ) ;
#50 = CARTESIAN_POINT ( 'NONE',  ( -40.50000000000000000, 0.0000000000000000000, -61.99999999999997900 ) ) ;
#51 = AXIS2_PLACEMENT_3D ( 'NONE', #63, #62, #58 ) ;
#52 =( NAMED_UNIT ( * ) PLANE_ANGLE_UNIT ( ) SI_UNIT ( $, .RADIAN. ) );
#53 =( LENGTH_UNIT ( ) NAMED_UNIT ( * ) SI_UNIT ( .MILLI., .METRE. ) );
#54 = DIRECTION ( 'NONE',  ( 1.000000000000000000, 0.0000000000000000000, 0.0000000000000000000 ) ) ;
#55 = DIRECTION ( 'NONE',  ( 0.0000000000000000000, 0.0000000000000000000, 1.000000000000000000 ) ) ;
#56 = VECTOR ( 'NONE', #121, 1000.000000000000000 ) ;
#57 = CARTESIAN_POINT ( 'NONE',  ( 0.0000000000000000000, 0.0000000000000000000, 0.0000000000000000000 ) ) ;
#58 = DIRECTION ( 'NONE',  ( 1.000000000000000000, 0.0000000000000000000, 0.0000000000000000000 ) ) ;
#59 = EDGE_CURVE ( 'NONE', #17, #195, #120, .T. ) ;
#60 =( GEOMETRIC_REPRESENTATION_CONTEXT ( 3 ) GLOBAL_UNCERTAINTY_ASSIGNED_CONTEXT ( ( #64 ) ) GLOBAL_UNIT_ASSIGNED_CONTEXT ( ( #75, #72, #67 ) ) REPRESENTATION_CONTEXT ( 'NONE', 'WORKASPACE' ) );
#61 = SHAPE_REPRESENTATION_RELATIONSHIP ( 'NONE' , 'NONE' ,  #209, #101 ) ;
#62 = DIRECTION ( 'NONE',  ( 0.0000000000000000000, 0.0000000000000000000, 1.000000000000000000 ) ) ;
#63 = CARTESIAN_POINT ( 'NONE',  ( 0.0000000000000000000, 0.0000000000000000000, 0.0000000000000000000 ) ) ;
#64 = UNCERTAINTY_MEASURE_WITH_UNIT (LENGTH_MEASURE( 1.000000000000000100E-005 ), #75, 'distance_accuracy_value', 'NONE');
#65 = MECHANICAL_DESIGN_GEOMETRIC_PRESENTATION_REPRESENTATION (  '', ( #73 ), #60 ) ;
#66 = PRESENTATION_LAYER_ASSIGNMENT (  '', '', ( #73 ) ) ;
#67 =( NAMED_UNIT ( * ) SI_UNIT ( $, .STERADIAN. ) SOLID_ANGLE_UNIT ( ) );
#68 = VECTOR ( 'NONE', #158, 1000.000000000000000 ) ;
#69 = DIRECTION ( 'NONE',  ( 0.0000000000000000000, -1.000000000000000000, 0.0000000000000000000 ) ) ;
#70 = CARTESIAN_POINT ( 'NONE',  ( 40.50000000000001400, -3.000000000000000000, 61.99999999999999300 ) ) ;
#71 = LINE ( 'NONE', #182, #68 ) ;
#72 =( NAMED_UNIT ( * ) PLANE_ANGLE_UNIT ( ) SI_UNIT ( $, .RADIAN. ) );
#73 = STYLED_ITEM ( 'NONE', ( #44 ), #101 ) ;
#74 = CARTESIAN_POINT ( 'NONE',  ( 40.50000000000000000, -3.000000000000000000, -61.99999999999997900 ) ) ;
#75 =( LENGTH_UNIT ( ) NAMED_UNIT ( * ) SI_UNIT ( .MILLI., .METRE. ) );
#76 = SURFACE_STYLE_USAGE ( .BOTH. , #79 ) ;
#77 = AXIS2_PLACEMENT_3D ( 'NONE', #87, #86, #153 ) ;
#78 = DIRECTION ( 'NONE',  ( 0.0000000000000000000, 0.0000000000000000000, 1.000000000000000000 ) ) ;
#79 = SURFACE_SIDE_STYLE ('',( #45 ) ) ;
#80 = FILL_AREA_STYLE ('',( #81 ) ) ;
#81 = FILL_AREA_STYLE_COLOUR ( '', #178 ) ;
#82 = DIRECTION ( 'NONE',  ( 0.0000000000000000000, 1.000000000000000000, 0.0000000000000000000 ) ) ;
#83 =( GEOMETRIC_REPRESENTATION_CONTEXT ( 3 ) GLOBAL_UNCERTAINTY_ASSIGNED_CONTEXT ( ( #202 ) ) GLOBAL_UNIT_ASSIGNED_CONTEXT ( ( #93, #92, #91 ) ) REPRESENTATION_CONTEXT ( 'NONE', 'WORKASPACE' ) );
#84 = LINE ( 'NONE', #205, #173 ) ;
#85 = CIRCLE ( 'NONE', #104, 61.99999999999998600 ) ;
#86 = DIRECTION ( 'NONE',  ( 0.0000000000000000000, 0.0000000000000000000, 1.000000000000000000 ) ) ;
#87 = CARTESIAN_POINT ( 'NONE',  ( 0.0000000000000000000, 0.0000000000000000000, 0.0000000000000000000 ) ) ;
#88 = AXIS2_PLACEMENT_3D ( 'NONE', #181, #108, #103 ) ;
#89 = ORIENTED_EDGE ( 'NONE', *, *, #233, .T. ) ;
#90 = CARTESIAN_POINT ( 'NONE',  ( 40.50000000000001400, -3.000000000000000000, -1.387778780781445700E-014 ) ) ;
#91 =( NAMED_UNIT ( * ) SI_UNIT ( $, .STERADIAN. ) SOLID_ANGLE_UNIT ( ) );
#92 =( NAMED_UNIT ( * ) PLANE_ANGLE_UNIT ( ) SI_UNIT ( $, .RADIAN. ) );
#93 =( LENGTH_UNIT ( ) NAMED_UNIT ( * ) SI_UNIT ( .MILLI., .METRE. ) );
#94 = PRESENTATION_STYLE_ASSIGNMENT (( #199 ) ) ;
#95 = COLOUR_RGB ( '',1.000000000000000000, 1.000000000000000000, 1.000000000000000000 ) ;
#96 = AXIS2_PLACEMENT_3D ( 'NONE', #116, #115, #110 ) ;
#97 = CIRCLE ( 'NONE', #96, 61.99999999999998600 ) ;
#98 = CARTESIAN_POINT ( 'NONE',  ( 0.0000000000000000000, 0.0000000000000000000, 0.0000000000000000000 ) ) ;
#99 = PRODUCT_DEFINITION_CONTEXT ( 'detailed design', #20, 'design' ) ;
#100 = EDGE_CURVE ( 'NONE', #195, #213, #159, .T. ) ;
#101 = ADVANCED_BREP_SHAPE_REPRESENTATION ( '', ( #218, #77 ), #83 ) ;
#102 = ORIENTED_EDGE ( 'NONE', *, *, #240, .F. ) ;
#103 = DIRECTION ( 'NONE',  ( 0.0000000000000000000, 0.0000000000000000000, -1.000000000000000000 ) ) ;
#104 = AXIS2_PLACEMENT_3D ( 'NONE', #137, #136, #135 ) ;
#105 =( GEOMETRIC_REPRESENTATION_CONTEXT ( 3 ) GLOBAL_UNCERTAINTY_ASSIGNED_CONTEXT ( ( #204 ) ) GLOBAL_UNIT_ASSIGNED_CONTEXT ( ( #198, #194, #187 ) ) REPRESENTATION_CONTEXT ( 'NONE', 'WORKASPACE' ) );
#106 = DIRECTION ( 'NONE',  ( 0.0000000000000000000, 1.000000000000000000, 0.0000000000000000000 ) ) ;
#107 = FACE_OUTER_BOUND ( 'NONE', #188, .T. ) ;
#108 = DIRECTION ( 'NONE',  ( 0.0000000000000000000, 1.000000000000000000, -0.0000000000000000000 ) ) ;
#109 = MECHANICAL_DESIGN_GEOMETRIC_PRESENTATION_REPRESENTATION (  '', ( #117 ), #105 ) ;
#110 = DIRECTION ( 'NONE',  ( 0.0000000000000000000, 0.0000000000000000000, 1.000000000000000000 ) ) ;
#111 = PRESENTATION_LAYER_ASSIGNMENT (  '', '', ( #117 ) ) ;
#112 = VECTOR ( 'NONE', #40, 1000.000000000000000 ) ;
#113 = SURFACE_STYLE_FILL_AREA ( #207 ) ;
#114 = AXIS2_PLACEMENT_3D ( 'NONE', #224, #241, #221 ) ;
#115 = DIRECTION ( 'NONE',  ( 0.0000000000000000000, 1.000000000000000000, 0.0000000000000000000 ) ) ;
#116 = CARTESIAN_POINT ( 'NONE',  ( -40.50000000000001400, -3.000000000000000000, -1.387778780781445700E-014 ) ) ;
#117 = STYLED_ITEM ( 'NONE', ( #94 ), #218 ) ;
#118 = CARTESIAN_POINT ( 'NONE',  ( -40.50000000000001400, -3.000000000000000000, 61.99999999999999300 ) ) ;
#119 = AXIS2_PLACEMENT_3D ( 'NONE', #239, #230, #229 ) ;
#120 = LINE ( 'NONE', #203, #127 ) ;
#121 = DIRECTION ( 'NONE',  ( 0.0000000000000000000, 1.000000000000000000, 0.0000000000000000000 ) ) ;
#122 = FACE_OUTER_BOUND ( 'NONE', #185, .T. ) ;
#123 = ORIENTED_EDGE ( 'NONE', *, *, #201, .F. ) ;
#124 = DIRECTION ( 'NONE',  ( 0.0000000000000000000, 1.000000000000000000, 0.0000000000000000000 ) ) ;
#125 = FACE_OUTER_BOUND ( 'NONE', #231, .T. ) ;
#126 = VECTOR ( 'NONE', #208, 1000.000000000000000 ) ;
#127 = VECTOR ( 'NONE', #147, 1000.000000000000000 ) ;
#128 = SHAPE_REPRESENTATION ( '6290124', ( #36, #48 ), #43 ) ;
#129 = CYLINDRICAL_SURFACE ( 'NONE', #145, 61.99999999999998600 ) ;
#130 = VECTOR ( 'NONE', #210, 1000.000000000000000 ) ;
#131 = VECTOR ( 'NONE', #124, 1000.000000000000000 ) ;
#132 = LINE ( 'NONE', #163, #131 ) ;
#133 = PLANE ( 'NONE',  #141 ) ;
#134 = CIRCLE ( 'NONE', #88, 61.99999999999998600 ) ;
#135 = DIRECTION ( 'NONE',  ( 0.0000000000000000000, 0.0000000000000000000, -1.000000000000000000 ) ) ;
#136 = DIRECTION ( 'NONE',  ( 0.0000000000000000000, 1.000000000000000000, -0.0000000000000000000 ) ) ;
#137 = CARTESIAN_POINT ( 'NONE',  ( 40.50000000000001400, 0.0000000000000000000, -1.387778780781445700E-014 ) ) ;
#138 = EDGE_LOOP ( 'NONE', ( #146, #189, #192, #193 ) ) ;
#139 = VERTEX_POINT ( 'NONE', #238 ) ;
#140 = CARTESIAN_POINT ( 'NONE',  ( -40.50000000000001400, 0.0000000000000000000, 61.99999999999999300 ) ) ;
#141 = AXIS2_PLACEMENT_3D ( 'NONE', #42, #30, #28 ) ;
#142 = SHAPE_DEFINITION_REPRESENTATION ( #3, #209 ) ;
#143 = ITEM_DEFINED_TRANSFORMATION ( 'NONE', 'NONE', #48,  #77 ) ;
#144 = CARTESIAN_POINT ( 'NONE',  ( 40.50000000000001400, 0.0000000000000000000, -1.387778780781445700E-014 ) ) ;
#145 = AXIS2_PLACEMENT_3D ( 'NONE', #90, #157, #170 ) ;
#146 = ORIENTED_EDGE ( 'NONE', *, *, #4, .F. ) ;
#147 = DIRECTION ( 'NONE',  ( -1.000000000000000000, -0.0000000000000000000, -0.0000000000000000000 ) ) ;
#148 = CONTEXT_DEPENDENT_SHAPE_REPRESENTATION ( #14, #10 ) ;
#149 = ADVANCED_FACE ( 'NONE', ( #125 ), #150, .T. ) ;
#150 = PLANE ( 'NONE',  #119 ) ;
#151 = ORIENTED_EDGE ( 'NONE', *, *, #47, .T. ) ;
#152 = ORIENTED_EDGE ( 'NONE', *, *, #4, .T. ) ;
#153 = DIRECTION ( 'NONE',  ( 1.000000000000000000, 0.0000000000000000000, 0.0000000000000000000 ) ) ;
#154 = FACE_OUTER_BOUND ( 'NONE', #177, .T. ) ;
#155 = CIRCLE ( 'NONE', #215, 61.99999999999998600 ) ;
#156 = LINE ( 'NONE', #236, #126 ) ;
#157 = DIRECTION ( 'NONE',  ( 0.0000000000000000000, 1.000000000000000000, 0.0000000000000000000 ) ) ;
#158 = DIRECTION ( 'NONE',  ( 1.000000000000000000, 0.0000000000000000000, 0.0000000000000000000 ) ) ;
#159 = LINE ( 'NONE', #12, #112 ) ;
#160 = LINE ( 'NONE', #50, #130 ) ;
#161 = CYLINDRICAL_SURFACE ( 'NONE', #169, 61.99999999999998600 ) ;
#162 = FACE_OUTER_BOUND ( 'NONE', #190, .T. ) ;
#163 = CARTESIAN_POINT ( 'NONE',  ( 40.50000000000001400, -3.000000000000000000, 61.99999999999999300 ) ) ;
#164 = PRODUCT ( '6290124', '6290124', '', ( #32 ) ) ;
#165 = ORIENTED_EDGE ( 'NONE', *, *, #223, .T. ) ;
#166 = ORIENTED_EDGE ( 'NONE', *, *, #232, .F. ) ;
#167 = ORIENTED_EDGE ( 'NONE', *, *, #235, .F. ) ;
#168 = ORIENTED_EDGE ( 'NONE', *, *, #242, .F. ) ;
#169 = AXIS2_PLACEMENT_3D ( 'NONE', #225, #82, #186 ) ;
#170 = DIRECTION ( 'NONE',  ( 0.0000000000000000000, 0.0000000000000000000, 1.000000000000000000 ) ) ;
#171 = DIRECTION ( 'NONE',  ( 0.0000000000000000000, 1.000000000000000000, 0.0000000000000000000 ) ) ;
#172 = ORIENTED_EDGE ( 'NONE', *, *, #201, .T. ) ;
#173 = VECTOR ( 'NONE', #171, 1000.000000000000000 ) ;
#174 = LINE ( 'NONE', #118, #56 ) ;
#175 = CARTESIAN_POINT ( 'NONE',  ( 40.50000000000001400, 0.0000000000000000000, 61.99999999999999300 ) ) ;
#176 = ADVANCED_FACE ( 'NONE', ( #107 ), #222, .T. ) ;
#177 = EDGE_LOOP ( 'NONE', ( #29, #167, #183, #165 ) ) ;
#178 = COLOUR_RGB ( '',1.000000000000000000, 1.000000000000000000, 1.000000000000000000 ) ;
#179 = PRODUCT_DEFINITION_CONTEXT ( 'detailed design', #26, 'design' ) ;
#180 = ORIENTED_EDGE ( 'NONE', *, *, #100, .T. ) ;
#181 = CARTESIAN_POINT ( 'NONE',  ( 40.50000000000001400, -3.000000000000000000, -1.387778780781445700E-014 ) ) ;
#182 = CARTESIAN_POINT ( 'NONE',  ( -40.50000000000001400, 0.0000000000000000000, 61.99999999999999300 ) ) ;
#183 = ORIENTED_EDGE ( 'NONE', *, *, #240, .T. ) ;
#184 = ORIENTED_EDGE ( 'NONE', *, *, #235, .T. ) ;
#185 = EDGE_LOOP ( 'NONE', ( #196, #197, #214, #180 ) ) ;
#186 = DIRECTION ( 'NONE',  ( 0.0000000000000000000, 0.0000000000000000000, 1.000000000000000000 ) ) ;
#187 =( NAMED_UNIT ( * ) SI_UNIT ( $, .STERADIAN. ) SOLID_ANGLE_UNIT ( ) );
#188 = EDGE_LOOP ( 'NONE', ( #102, #123, #217, #15 ) ) ;
#189 = ORIENTED_EDGE ( 'NONE', *, *, #100, .F. ) ;
#190 = EDGE_LOOP ( 'NONE', ( #89, #151, #152, #25 ) ) ;
#191 = VERTEX_POINT ( 'NONE', #220 ) ;
#192 = ORIENTED_EDGE ( 'NONE', *, *, #237, .T. ) ;
#193 = ORIENTED_EDGE ( 'NONE', *, *, #242, .T. ) ;
#194 =( NAMED_UNIT ( * ) PLANE_ANGLE_UNIT ( ) SI_UNIT ( $, .RADIAN. ) );
#195 = VERTEX_POINT ( 'NONE', #219 ) ;
#196 = ORIENTED_EDGE ( 'NONE', *, *, #47, .F. ) ;
#197 = ORIENTED_EDGE ( 'NONE', *, *, #223, .F. ) ;
#198 =( LENGTH_UNIT ( ) NAMED_UNIT ( * ) SI_UNIT ( .MILLI., .METRE. ) );
#199 = SURFACE_STYLE_USAGE ( .BOTH. , #200 ) ;
#200 = SURFACE_SIDE_STYLE ('',( #113 ) ) ;
#201 = EDGE_CURVE ( 'NONE', #139, #24, #156, .T. ) ;
#202 = UNCERTAINTY_MEASURE_WITH_UNIT (LENGTH_MEASURE( 1.000000000000000100E-005 ), #93, 'distance_accuracy_value', 'NONE');
#203 = CARTESIAN_POINT ( 'NONE',  ( -40.50000000000000000, -3.000000000000000000, -61.99999999999997900 ) ) ;
#204 = UNCERTAINTY_MEASURE_WITH_UNIT (LENGTH_MEASURE( 1.000000000000000100E-005 ), #198, 'distance_accuracy_value', 'NONE');
#205 = CARTESIAN_POINT ( 'NONE',  ( 40.50000000000000000, -3.000000000000000000, -61.99999999999997900 ) ) ;
#206 = AXIS2_PLACEMENT_3D ( 'NONE', #144, #69, #9 ) ;
#207 = FILL_AREA_STYLE ('',( #216 ) ) ;
#208 = DIRECTION ( 'NONE',  ( 1.000000000000000000, 0.0000000000000000000, 0.0000000000000000000 ) ) ;
#209 = SHAPE_REPRESENTATION ( '000255T1_Standard', ( #77 ), #83 ) ;
#210 = DIRECTION ( 'NONE',  ( -1.000000000000000000, -0.0000000000000000000, -0.0000000000000000000 ) ) ;
#211 = CARTESIAN_POINT ( 'NONE',  ( -40.50000000000001400, 0.0000000000000000000, -1.387778780781445700E-014 ) ) ;
#212 = PRODUCT_RELATED_PRODUCT_CATEGORY ( 'part', '', ( #13 ) ) ;
#213 = VERTEX_POINT ( 'NONE', #227 ) ;
#214 = ORIENTED_EDGE ( 'NONE', *, *, #59, .T. ) ;
#215 = AXIS2_PLACEMENT_3D ( 'NONE', #211, #106, #78 ) ;
#216 = FILL_AREA_STYLE_COLOUR ( '', #95 ) ;
#217 = ORIENTED_EDGE ( 'NONE', *, *, #237, .F. ) ;
#218 = MANIFOLD_SOLID_BREP ( 'Linear austragen1', #33 ) ;
#219 = CARTESIAN_POINT ( 'NONE',  ( -40.50000000000000700, -3.000000000000000000, -62.00000000000000000 ) ) ;
#220 = CARTESIAN_POINT ( 'NONE',  ( 40.50000000000000000, 0.0000000000000000000, -61.99999999999997900 ) ) ;
#221 = DIRECTION ( 'NONE',  ( 0.0000000000000000000, -0.0000000000000000000, -1.000000000000000000 ) ) ;
#222 = PLANE ( 'NONE',  #114 ) ;
#223 = EDGE_CURVE ( 'NONE', #17, #191, #84, .T. ) ;
#224 = CARTESIAN_POINT ( 'NONE',  ( 40.50000000000001400, -3.000000000000000000, -1.387778780781445700E-014 ) ) ;
#225 = CARTESIAN_POINT ( 'NONE',  ( -40.50000000000001400, -3.000000000000000000, -1.387778780781445700E-014 ) ) ;
#226 = PLANE ( 'NONE',  #206 ) ;
#227 = CARTESIAN_POINT ( 'NONE',  ( -40.50000000000000700, 0.0000000000000000000, -62.00000000000000000 ) ) ;
#228 = VERTEX_POINT ( 'NONE', #175 ) ;
#229 = DIRECTION ( 'NONE',  ( 1.000000000000000000, 0.0000000000000000000, -0.0000000000000000000 ) ) ;
#230 = DIRECTION ( 'NONE',  ( 0.0000000000000000000, 0.0000000000000000000, 1.000000000000000000 ) ) ;
#231 = EDGE_LOOP ( 'NONE', ( #166, #168, #172, #184 ) ) ;
#232 = EDGE_CURVE ( 'NONE', #234, #228, #71, .T. ) ;
#233 = EDGE_CURVE ( 'NONE', #228, #191, #85, .T. ) ;
#234 = VERTEX_POINT ( 'NONE', #140 ) ;
#235 = EDGE_CURVE ( 'NONE', #24, #228, #132, .T. ) ;
#236 = CARTESIAN_POINT ( 'NONE',  ( -40.50000000000001400, -3.000000000000000000, 61.99999999999999300 ) ) ;
#237 = EDGE_CURVE ( 'NONE', #195, #139, #97, .T. ) ;
#238 = CARTESIAN_POINT ( 'NONE',  ( -40.50000000000001400, -3.000000000000000000, 61.99999999999999300 ) ) ;
#239 = CARTESIAN_POINT ( 'NONE',  ( -40.50000000000001400, -3.000000000000000000, 61.99999999999999300 ) ) ;
#240 = EDGE_CURVE ( 'NONE', #24, #17, #134, .T. ) ;
#241 = DIRECTION ( 'NONE',  ( 0.0000000000000000000, -1.000000000000000000, 0.0000000000000000000 ) ) ;
#242 = EDGE_CURVE ( 'NONE', #139, #234, #174, .T. ) ;
#243 = NEXT_ASSEMBLY_USAGE_OCCURRENCE ( 'NAUO1', ' ', ' ', #27, #31, $ ) ;
ENDSEC;
END-ISO-10303-21;
